Follow by Email

Thursday, January 15, 2009

ညီ့အတြက္ ကဗ်ာ

ညီေလးေရ …
အေမ့ကို ဂ႐ုစိုက္ ..
မင္းကိုယ္မင္းလည္း ဂ႐ုစုိက္ပါကြာ
အျပာေရာင္ေကာင္းကင္ႀကီးေအာက္မွာ
တို႔ညီအစ္ကို ႏွစ္ေယာက္ပဲ
အေမ့အတြက္ ရွိၾကတာ။

ညီေလးေရ
ကိုႀကီးရဲ႕ ခြန္ေတြ၊ အားေတြ၊ သတၱိေတြဆိုတာ
ေဟာဒီကမၻာႀကီးေပၚမွာ ရွိေနခဲ့တယ္လို႔
အစက မသိခဲ့႐ိုးအမွန္ပါ
အဲဒီ ခြန္ေတြ၊ အားေတြ၊ သတၱိေတြနဲ႔အတူ
မိသားစုကိုလြမ္းတဲ့ အလြမ္းေတြပါ ေဟာဒီရင္ဘတ္ထဲ အျပည့္။

သိလား ညီေလးရဲ႕
တို႔ညီအစ္ကို
မတည့္အတူေနျဖစ္ခဲ့တဲ့ အခ်ိန္ေတြကို
သတၳဳလႈိင္းေတြကေနတဆင့္ တည့္ၿပီးေဝးရေတာ့မွ
ျပန္လြမ္းတယ္

ညီေလးေရ
ကမၻာေျမႀကီးေပၚမွာ
ညီေလးတေယာက္ ရွိေနရျခင္းအတြက္
ကိုႀကီးကို ဂုဏ္ယူခြင့္ေပးပါ
အေမနဲ႔အေဖကို ေပ်ာ္ရႊင္ခြင့္ေပးပါ
ညီေလးက ကမၻာေျမႀကီးအတြက္
ရန႔ံသင္းတဲ့ ပန္းကေလးတပြင့္ ျဖစ္ေပးလိုက္ပါကြယ္။

ကိုႀကီးရဲ႕ ပုခံုးေတြ အသားမာတက္ခ်င္တက္သြားပါေစ
ကိုႀကီးရဲ႕လက္ဖဝါးေတြ ေသြးခ်င္းခ်င္းနီရဲသြားပါေစ
ကိုႀကီးရဲ႕ေျခဖဝါးေတြ အရည္ျပားပါ မက်န္ေအာင္ စုတ္ျပတ္သတ္သြားပါေစ
မိသားစုထဲမွာ
ညီေလးဆိုတဲ့ ေနာက္ထပ္ၾကယ္ကေလးတပြင့္
တင့္တင့္တယ္တယ္ပြင့္ဖို႔အတြက္
ကိုႀကီးရဲ႕ မနက္ျဖန္ေတြကိုပါ ေပးရေပးရ ေက်နပ္တယ္ …။ ။

wE aRe ThE cHaMpIoN By Greenday



VERSE 1
(I\'ve paid my dues)-No Guitar
(Time after time)-No Guitar
(I\'ve done my sentence)-No Guitar
(But committed no crime)-No Guitar

VERSE 2
(And bad mistakes)
E[--------------------------------------------------------]
B[---------------7-----------8----------------------------]
G[-----------------7---7---7---7---7---7------------------]
D[-------------------7---7-------7---7--------------------]
A[--------------------------------------------------------]
E[--------------------------------------------------------]

(I've made a few)
E[--------------------------------------------------------]
B[---------------7-----------8----------------------------]
G[-----------------7---7---7---7---7---7------------------]
D[-------------------7---7-------7---7--------------------]
A[--------------------------------------------------------]
E[--------------------------------------------------------]

(I've had my share of sand kicked in my face)
E[--------------------------------------------------------]
B[--------------------------------------------------------]
G[----------7~------------7~------------4~----------------]
D[----------7~------------7~------------4~----------------]
A[----------5~------------4~------------2~----------------]
E[--------------------------------------------------------]

(But I'll come through, And it keeps me going on and on and on and on
E[-------------------------------------------------------------------------]
B[-------------------------------------------------------------------------]
G[--------------------------------------------2-2-2-2-2-2-2-2-2-4~---------]
D[---2~---------------------------------------2-2-2-2-2-2-2-2-2-4~---------]
A[---2~---------------------------------------0-0-0-0-0-0-0-0-0-2~---------]
E[---0~--------------------------------------------------------------------]
^ ^ ^ ^
Accentuate these notes


CHORUS
(We are the champions, my friends)
E[--------------------------------------------------------]
B[--------------------------------------------------------]
G[--------------------------6~------2~-4~-----------------]
D[-2~---------6~------------6~------2~-4~-----------------]
A[-2~---------6~------------4~------0~-2~-----------------]
E[-0~---------4~------------------------------------------]


(And we'll keep on fighting till' the end)
E[--------------------------------------------------------]
B[--------------------------------------------------------]
G[------------------------------------2~------------------]
D[---2~------------6~-----------------2~---6~-4~-2~-4~----]
A[---2~------------6~-----------------0~---6~-4~-2~-4~----]
E[---0~------------4~----------------------4~-2~-0~-2~----]


(We are the champions, We are the champions)
E[--------------------------------------------------------]
B[--------------------------------------------------------]
G[-----------------------2~-2~--2~--4~---6~---------------]
D[-4~-4~--4~--4~---------2~-2~--2~--4~---6~---------------]
A[-4~-4~--4~--4~---------0~-0~--0~--2~---4~---------------]
E[-2~-2~--2~--2~------------------------------------------]

(No time for losers, but we are the champions)
E[--------------------------------------------------------------]
B[--------------------------------------------------------------]
G[--------------------------------------------------------------]
D[-2~----------4~----------5~---------7~-------9~-9~------------]
A[-2~----------4~----------5~---------7~-------9~-9~------------]
E[-0~----------2~----------3~---------5~-------7~-7~------------]

(Of the world)
E[-----------------------------------]
B[-----------------------------------]
G[-----------------------------------]
D[---------------2~------------------]
A[---------------2~------------------]
E[---------------0~------------------]

PIANO INTERLUDE

VERSE 3
(I've taken my bows)-No Guitar
(My curtain calls)-No Guitar
(You've brought me fame and fortune and everything that goes with it)-No Guitar
(And I'm Rick James, Bitch)-No Guitar **Yes He Does Say This**

Verse 4
(But it's been no bed of roses)
E[----------------------------------------------------------------]
B[-----------------------7-----------8----------------------------]
G[-------------------------7---7---7---7---7---7------------------]
D[---------------------------7---7-------7---7--------------------]
A[----------------------------------------------------------------]
E[----------------------------------------------------------------]

(No pleasure cruise)
E[----------------------------------------------------]
B[-----------7-----------8----------------------------]
G[-------------7---7---7---7---7---7------------------]
D[---------------7---7-------7---7--------------------]
A[----------------------------------------------------]
E[----------------------------------------------------]

(I consider it a challenge before all human race)
E[--------------------------------------------------------]
B[--------------------------------------------------------]
G[---------------7~------------7~------------4~-----------]
D[---------------7~------------7~------------4~-----------]
A[---------------5~------------4~------------2~-----------]
E[--------------------------------------------------------]

(That I'll NEVER lose, and it keeps me going on and on and on and on)
E[-------------------------------------------------------------------------]
B[-------------------------------------------------------------------------]
G[--------------------------------------------2-2-2-2-2-2-2-2-2-4~---------]
D[---------------2~---------------------------2-2-2-2-2-2-2-2-2-4~---------]
A[---------------2~---------------------------0-0-0-0-0-0-0-0-0-2~---------]
E[---------------0~--------------------------------------------------------]

^ ^ ^ ^
Accentuate these notes


CHORUS
(We are the champions, my friends)
E[--------------------------------------------------------]
B[--------------------------------------------------------]
G[--------------------------6~------2~-4~-----------------]
D[-2~---------6~------------6~------2~-4~-----------------]
A[-2~---------6~------------4~------0~-2~-----------------]
E[-0~---------4~------------------------------------------]


(And we'll keep on fighting till' the end)
E[--------------------------------------------------------]
B[--------------------------------------------------------]
G[------------------------------------2~------------------]
D[---2~------------6~-----------------2~---6~-4~-2~-4~----]
A[---2~------------6~-----------------0~---6~-4~-2~-4~----]
E[---0~------------4~----------------------4~-2~-0~-2~----]


(We are the champions, We are the champions)
E[--------------------------------------------------------]
B[--------------------------------------------------------]
G[-----------------------2~-2~--2~--4~---6~---------------]
D[-4~-4~--4~--4~---------2~-2~--2~--4~---6~---------------]
A[-4~-4~--4~--4~---------0~-0~--0~--2~---4~---------------]
E[-2~-2~--2~--2~------------------------------------------]

(No time for losers, but we are the champions)
E[--------------------------------------------------------------]
B[--------------------------------------------------------------]
G[--------------------------------------------------------------]
D[-2~----------4~----------5~---------7~-------9~-9~------------]
A[-2~----------4~----------5~---------7~-------9~-9~------------]
E[-0~----------2~----------3~---------5~-------7~-7~------------]

(Of the world)
E[-----------------------------------]
B[-----------------------------------]
G[-----------------------------------]
D[---------------2~------------------]
A[---------------2~------------------]
E[---------------0~------------------]


CHORUS
(We are the champions, my friends)
E[--------------------------------------------------------]
B[--------------------------------------------------------]
G[--------------------------6~------2~-4~-----------------]
D[-2~---------6~------------6~------2~-4~-----------------]
A[-2~---------6~------------4~------0~-2~-----------------]
E[-0~---------4~------------------------------------------]


(And we'll keep on fighting till' the end)
E[--------------------------------------------------------]
B[--------------------------------------------------------]
G[------------------------------------2~------------------]
D[---2~------------6~-----------------2~---6~-4~-2~-4~----]
A[---2~------------6~-----------------0~---6~-4~-2~-4~----]
E[---0~------------4~----------------------4~-2~-0~-2~----]


(We are the champions, We are the champions)
E[--------------------------------------------------------]
B[--------------------------------------------------------]
G[-----------------------2~-2~--2~--4~---6~---------------]
D[-4~-4~--4~--4~---------2~-2~--2~--4~---6~---------------]
A[-4~-4~--4~--4~---------0~-0~--0~--2~---4~---------------]
E[-2~-2~--2~--2~------------------------------------------]

(No time for losers, but we are the champions...)
E[--------------------------------------------------------------]
B[--------------------------------------------------------------]
G[--------------------------------------------------------------]
D[-2~----------4~----------5~---------7~-------9~-9~------------]
A[-2~----------4~----------5~---------7~-------9~-9~------------]
E[-0~----------2~----------3~---------5~-------7~-7~------------] END

Wednesday, January 7, 2009

ဝင္ကစြပ္

ပိုင္ရွင္လာတဲ့အခါ
ဖယ္ေပးရမယ္ ဆိုတဲ့အသိနဲ႔
ညညေတြ ခဏခဏ လန္႔ႏိုး
အိပ္မက္ဆိုးေတြနဲ႔ နပမ္းလံုးေနရ
ဘဝက မလွတာ ၾကာလွေပါ့။

ကိုယ့္အိမ္အစစ္မဟုတ္မွန္း သိေပမယ့္
ဒီေနရာေလးကိုပဲ အလွဆင္ခ်င္ေနမိတယ္
အဲဒီပီတိေတြက ငါ့အတြက္ အာဟာရေလ။

အတိတ္ခ်ိဳခ်ိဳ ပစၥဳပၸန္ခါးခါး
အနာဂတ္ကေတာ့ အရသာအားလံုး ေပ်ာက္ဆံုးၿပီပဲ ထားေတာ့
မင္းရဲ႕ခ်စ္ျခင္းေတြေအာက္မွာ
ဒီေန႔တရက္သာ ခိုလႈံခြင့္ရရင္ ေနလည္းေပ်ာ္ .. ေသလည္း ေပ်ာ္မယ့္သူပါ။

စကားမွာအေရာင္နဲ႔ အရသာရွိတယ္ဆိုတာ
ငါ ရွာေဖြေတြ႕ရွိခဲ့ၿပီ
အစိမ္းေရာင္၊ ခါးသက္ အဲဒါ ငါ့အတြက္သက္သက္မဟုတ္လား။

ဘယ္လိုေၾကာင့္ပဲျဖစ္ျဖစ္
ဝင္ကစြပ္တေကာင္ေၾကာင့္ေတာ့
မင္း ဒဏ္ရာ မရေစရပါဘူးကြယ္။ ။
Glitter Word GeneratorGlitter Word GeneratorGlitter Word GeneratorGlitter Word Generator

Glitter Word Generator

Saturday, January 3, 2009

လိပ္ျပာသခ်ႋဳင္း

ဒီလမ္းကေလးကိုေန႔တိုင္း ေလွ်ာက္ပါမ်ားေတာ့ က်ေနာ့္ေျခေထာက္ေတြက အက်င့္ပါေနသလိုပဲ။ ဒီအခ်ိန္ဆိုရင္ ဒီလမ္းကေလးကို အလိုလိုေလွ်ာက္ရမယ္ဆိုတာ သူ႔ဘာသာသိေနပံုရတယ္။ ၿပီးေတာ့ က်ေနာ့္ မ်က္လံုးေတြက ျမင္ေနက် အရာေတြကိုလည္း မွတ္မိေနတတ္တယ္။


မနက္မိုးလင္းရင္ ပံုမွန္ထေနက်အခ်ိန္ထ၊ ကိုယ္လက္သန္႔စင္၊ ေရခ်ိဳးၿပီးတာနဲ႔ အိမ္ကထြက္ၿပီး ဒီလမ္းကေလးကို ေလွ်ာက္။ ၿပီးေတာ့ အယ္လ္အာရ္တီေစာင့္၊ က်ေနာ္အလုပ္လုပ္တဲ့ေနရာကို အယ္လ္အာရတီနဲ႔ ၁၀ မိနစ္ေလာက္ စီးၿပီး ေရာက္ၿပီ။ က်ေနာ္ေရာက္မွ ဆိုင္တံခါးကိုဖြင့္ .. ၿပီးေတာ့ ပံုမွန္လုပ္ေနက် အလုပ္ေတြကိုပဲ ဇယ္ဆတ္သလို လုပ္ .. ကာစတန္မာေတြနဲ႔ေတြ႕ ... တခ်ိဳ႕ကာစတန္မာေတြဆို ေတာ္ေတာ္ေလးရင့္လို႔ ေျဖရွင္းရတာရွိတယ္ .. အဲလိုကိစၥ တခု ႏွစ္ခုကလြဲရင္ က်န္တာက ပံုမွန္ပါပဲ။


မနက္ ဆယ္နာရီခြဲကေန လုပ္လိုက္တဲ့အလုပ္က ည ကိုးနာရီခြဲမွပဲ ၿပီးေတာ့တယ္။ တပတ္ကို နားရက္က တရက္ပဲရွိတာေလ။ နားရက္မွာ က်ေနာ္ဝါသနာပါတဲ့ ဂစ္တာတီးတယ္။ စီးတီးေဟာလ္မွာ ကြမ္းေလး ဘာေလး သြားဝယ္ခ်င္ဝယ္မယ္။ ၿပီးေတာ့ သိုင္းဝတၳဳေတြ ထိုင္ဖတ္လိုက္မယ္။ သိုင္းဝတၳဳဖတ္ရတာ ႀကိဳက္တယ္ဗ်။ စိတ္ထဲမွာ ဘာမွမက်န္ဘူး။ ဖတ္ၿပီး ၿပီးသြားေရာ။ က်ေနာ္က ရင္ထဲမွာ တခုခုက်န္ေနတာမ်ိဳးကို မုန္းတယ္ေလ။


႐ုပ္ရွင္ၾကည့္ရင္လည္း စိတ္ထဲမွာ ဘာမွမက်န္ခဲ့မယ့္ အက္ရွင္ကားမ်ိဳး .. ၾကည့္ၿပီးရင္ ၿပီးသြားေရာ ဆိုတာမ်ိဳးပဲ။

အဲဒီေတာ့ က်ေနာ္ဟာ စက္႐ုပ္တ႐ုပ္ျဖစ္ေနၿပီလားလို႔ တခါတခါ စဥ္းစားမိတယ္။ က်ေနာ့္လႈပ္ရွားမႈေတြကလည္း စက္႐ုပ္ဆန္ေနတယ္။ ဂစ္တာတီးတာေတာင္ စေကးလ္ေတြကို စက္႐ုပ္တ႐ုပ္လို တီးေနမိတာလား မသိဘူး။ က်ေနာ့္လက္ေတြက အလိုလိုေရြ႕လ်ားေနတာေလ။


က်ေနာ့္ရင္ထဲမွာ တကယ္ကိုရွင္းရွင္းလင္းလင္းပဲရွိေနတာလို႔ ထင္မိတာ .. မွတ္မွတ္ရရ .. က်ေနာ့္ရဲ႕ အခ်ိန္ေတြ၊ အလုပ္ေတြ .. ကေမာက္ကမ ျဖစ္ေစမယ့္ မုန္တိုင္းေလးတခု ဝင္မေမႊခင္အထိေပါ့ဗ်ာ။

က်ေနာ့္ေျခလွမ္းေတြက ဘထၳရီအားနည္းေနတဲ့ ကစားစရာ အရုပ္တခုလို မမွန္ႏိုင္ေတာ့ဘူး၊ က်ေနာ့္ရဲ႕ မ်က္လံုးေတြကလည္း ျမင္ေနက်အရာေတြကို မျမင္ႏိုင္ေတာ့ဘူး၊ က်ေနာ္လုပ္ေနက် အလုပ္ေတြကလည္း ေတာ္ေတာ့္ကို အဆင္တေျပမျဖစ္ေတာ့တာ။ အယ္လ္အာတီစီးတာေတာင္ တခုခုလိုေနသလိုပဲဗ်။

က်ေနာ့္ကို နတ္တပါးပါးက ဖမ္းစားထားတာလား။ က်ေနာ္ေတာ့ ဒုကၡပဲဗ်ာ။


က်ေနာ္ၾကည့္ဖူးတဲ့ ႐ုပ္ရွင္ကား တကားထဲကလို ... အတိတ္ကိုျပန္သြားခဲ့တဲ့ သူတေယာက္က အတိတ္ကမၻာက လိပ္ျပာေလးတေကာင္ကို သတ္လိုက္မိတာနဲ႔ လက္ရွိကမၻာမွာ ရာသီဥတုေတြေဖာက္ျပန္ၿပီး ငလ်င္ေတြ အႀကီး အက်ယ္လႈပ္ .. ေလႀကီးမိုးႀကီးေတြက် ကုန္သလိုေပါ့ ..။ က်ေနာ္လည္း က်ေနာ္နဲ႔မဆိုင္တာ တခုကို လုပ္လုိက္ မိတယ္ ... အဲဒီမွာ က်ေနာ့္ရဲ႕လက္ရွိဘဝေလး ကေမာက္ကမ ျဖစ္ကုန္ေတာ့တာပဲ။


က်ေနာ္နဲ႔မဆိုင္တဲ့အလုပ္ဆိုတာလား ... ခ်စ္မိတာေပါ့ဗ်ာ။ ဆိုခဲ့ပါေရာလား။ က်ေနာ္က ဘာခံစားမႈမွ ရွိခ်င္တာ မဟုတ္ဘူးလို႔။ ရင္ထဲမွာ ရွင္းရွင္းလင္းလင္းပဲ ရွိခ်င္တာေလ။ အဲလိုေကာင္က တစံုတေယာက္ကို ခ်စ္မိသြားေတာ့ .. လြဲကုန္ေတာ့တာေပါ့။


က်ေနာ္အလုပ္လုပ္တဲ့ ဆိုင္ရဲ႕ ေဘးမွာ စာအုပ္ဆိုင္တဆိုင္ရွိတယ္။ အဲဒီဆိုင္က စာအုပ္ေတြက က်ေနာ္နဲ႔ ဘာမွ မဆိုင္ဘူး။ က်ေနာ္လည္းစိတ္မဝင္စားဘူး .. စာအုပ္ဆိုရင္ သိုင္းစာအုပ္ေလာက္ပဲ စိတ္ဝင္စားတဲ့ က်ေနာ္က ဒီလို အဂၤလိပ္စာအုပ္ ထူထူႀကီးေတြကို စိတ္ကူးထဲေတာင္ မထည့္မိပါဘူးဗ်ာ။ အဲဒီေန႔ကမွ ဘယ္လိုက ဘယ္လို ၾကည့္မိတယ္မသိဘူး .. က်ေနာ့္မ်က္လံုးေတြက အဲဒီဆိုင္ကို ေရာက္သြားတယ္။

ေျပာရဦးမယ္ဗ်။


က်ေနာ့္ဆိုင္ကိုေရာက္ဖို႔ အက္စကာေလဒါနဲ႔တက္လာရင္ အရင္ဆံုး အဲဒီစာအုပ္ဆိုင္ေရွ႕ကျဖတ္ ရတယ္။ ခါတိုင္းလည္း ျဖတ္တာပဲ။ ခါတိုင္းလည္း အဲဒီစာအုပ္ဆိုင္ေလးကို ျမင္တာပဲ။ စာအုပ္ေတြကို စင္အျမင့္ႀကီးနဲ႔ စီစီရီရီ တင္ထားတာ က်ေနာ့္အတြက္ ဘာဆန္းလို႔လည္းဗ်ာ။


အဲဒီေန႔ကေတာ့ က်ေနာ္ ခါတိုင္းနဲ႔မတူနဲ႔ ျမင္ကြင္းတခုကို ျမင္လိုက္ရတယ္။ အဲဒါကေတာ့ စာအုပ္စင္ေတြၾကားမွာ စာအုပ္တအုပ္ကို ေသေသခ်ာခ်ာ ဖတ္ေနတဲ့ ေကာင္မေလးတေယာက္ပါ။ သူက အဂၤလိပ္ စာအုပ္ တအုပ္ကို ေရြးတဲ့ပံုစံမဟုတ္ဘဲ ေသေသခ်ာခ်ာကို ဖတ္ေနတာ။ အဲဒီျမင္ကြင္းက က်ေနာ့္အတြက္ ေတာ္ေတာ္ေလး ထူးဆန္း ေနတယ္။ ေကာင္မေလးက သိပ္အလွစားေတာ့မဟုတ္ဘူး .. ဒါေပမယ့္ က်ေနာ္အလုပ္လုပ္တဲ့ ေမာလ္မွာ ျမင္ေနက် ေကာင္မေလးေတြနဲ႔ေတာ့ နည္းနည္းကြာတယ္။ သူ႔ပံုစံက ဗမာမေလး တေယာက္ ျဖစ္လိမ့္မယ္လို႔ က်ေနာ့္စိတ္ထဲမွာ အေသအခ်ာကို သိေနတာ။


ဒါနဲ႔ က်ေနာ္လည္း ကိုယ့္ဆိုင္ကိုယ္ဝင္ၿပီး လုပ္စရာရွိတာလုပ္ ... ၿပီးတာနဲ႔ စိတ္က အဲဒီေကာင္မေလးဆီ ေရာက္သြားျပန္ေရာဗ်။ ဒါနဲ႔ ဆိုင္ျပင္ထြက္ၿပီး ခပ္လွမ္းလွမ္းက တခ်က္ ေခ်ာင္းၾကည့္လိုက္ေတာ့ အဲဒီ ေကာင္မေလးက အဲဒီေနရာမွာရပ္ၿပီး စာအုပ္ဖတ္ေနတုန္းပဲ။


က်ေနာ့္အလုပ္ကိုေတာ့ ပ်က္လို႔မျဖစ္ဘူးေလ။ ေကာင္မေလးကို စိတ္ဝင္စားသလိုျဖစ္မိေပမယ့္ ဒီလိုပါပဲ။ ဗမာမေလးတေယာက္ျဖစ္တယ္ထင္လို႔ စိတ္ထဲမွာ တမ်ိဳးေလးျဖစ္မိတာပါ။ ကိုယ့္အလုပ္ကို္ယ္ ျပန္လုပ္ရင္း ခဏေတာ့ ေကာင္မေလးကို ေမ့သြားတယ္။ က်ေနာ့္စိတ္ထင္ ၁ နာရီေလာက္ ရွိမယ္ထင္တယ္။ ကာစတန္မာ ပါးတာနဲ႔ ေဆးလိပ္ကလည္း ေသာက္ခ်င္လာေတာ့ ေဆးလိပ္ဗူးနဲ႔မီးျခစ္ကိုယူၿပီး အျပင္ခဏထြက္လိုက္တယ္။ အဲဒီမွာ ဘာရယ္မဟုတ္ဘူး စာအုပ္ဆိုင္ထဲကို မ်က္လံုးက ေရာက္သြားျပန္ေရာ။


ေဟာဗ်ာ အဲဒီေကာင္မေလး ရွိေနတုန္းပဲ။ အဲဒီစာအုပ္ကို မၿပီးမခ်င္းမ်ား ဖတ္ေနမွာလားမသိဘူး။

အဲဒါပါပဲ ... က်ေနာ့္ပံုမွန္အလုပ္ေတြ ကေမာက္ကမျဖစ္ကုန္ရာရဲ႕အစက ..။ အဲဒီေန႔က ေကာင္မေလးကို ေတြ႕လိုက္ၿပီး ေနာက္ေန႔မေတြ႕ေတာ့ရင္ ဘာမွဆက္ျဖစ္စရာ မရွိဘူးေပါ့ဗ်ာ။ ျဖစ္ခ်င္ေတာ့ ေနာက္ထပ္ ၂ ရက္ဆက္တိုက္ အဲဒီေကာင္မေလးကို ဆက္ေတြ႕တယ္။ စာအုပ္ေတြကလြဲရင္ ဘာကိုမွ စိတ္မဝင္စားတဲ့ ပံုနဲ႔ .. ဂ်င္းေဘာင္းဘီရွည္ရယ္ တီရွပ္ရယ္ .. မ်က္ႏွာေျပာင္ေျပာင္တင္းတင္းေလးရယ္ ... ဒါပဲ။ ဒါေလးကပဲ က်ေနာ့္ကို အားလံုး ကေမာက္ကမ ျဖစ္ေစတယ္ဗ်ာ။


တတိယေျမာက္ေန႔မွာ သူ က်ေနာ့္ေရွ႕ကိုေရာက္လာတယ္ ဆိုရင္ယံုစရာ ဘယ္ရွိမလဲေနာ္။ တကယ္ဗ်။ သူ က်ေနာ့္ဆီေရာက္လာတယ္။ မဟုတ္ဘူး က်ေနာ့္ဆိုင္ကို ေရာက္လာတာ။ သူ႔ရဲ႕လက္ပ္ေတာ့ပ္ေလးကို ခ်ေပးၿပီး ဝါယာလက္စ္စစၥတမ္ စစ္ေပးဖို႔ လာေျပာတာ။ သူက အဂၤလိပ္လိုေျပာေပမယ့္ က်ေနာ္ အရဲစြန္႔ၿပီး ဗမာလို ေျပာလိုက္တယ္။


အံ့ၾသတဲ့ပံုနဲ႔ မ်က္ခံုးေလးႏွစ္ခုတြန္႔ေကြးသြားၿပီးမွ သူၿပံဳးတယ္။ က်ေနာ္မမွားပါဘူး .. သူက ဗမာမေလး တေယာက္ပဲဗ်။ သူ႔ကို ခဏေစာင့္ခိုင္းေတာ့ အေရးႀကီးတဲ့ကိစၥရွိလို႔ သူ႔စက္အျမန္ရမွ ျဖစ္မယ္တဲ့ ..။ က်ေနာ္တို႔ မွာ စက္ေတြကို ခ်က္ခ်င္းလုပ္ေပးတာ ထံုးစံမရွိေပမယ့္ က်ေနာ္ကေတာ့ သူ႔စက္ကေလးကို လုပ္ေပးခ်င္ေန မိတယ္ဗ်ာ။ သူက က်ေနာ္တို႔ဆိုင္ေရွ႕ ေလွခါးလက္ရမ္းကေလးကို မီွၿပီးေစာင့္ေနတယ္။


သူေစာင့္ေနပံုကလည္းၾကည့္ဦး ... က်ေနာ္လုပ္ေနတာကို မ်က္ေျခမပ်က္ၾကည့္ရင္းေစာင့္တာေလ။ သူ႔စက္က ဝါယာလက္စ္ေၾကာင္ေနတာ .. တခ်က္တခ်က္မွာရတယ္။ က်ေနာ့္အတြက္က ဒါ ဘာမွခက္ခဲတာမဟုတ္ဘူးေလ။


ဒါေပမယ့္သူၾကည့္ေနတဲ့ ေရွ႕မွာ လုပ္ရတာ တမ်ိဳးပဲဗ်။ ေခၽြးေတြဘာေတြပ်ံလာတာ။ က်ေနာ္ေမာ့ၾကည့္တိုင္း သူက ၿပံဳးျပတယ္။ သူၿပံဳးျပတဲ့ပံုက ေအးေအးေဆးေဆး လုပ္ပါလို႔ ေျပာေနသလိုပဲ။ ဒါေပမယ့္ က်ေနာ္ မေအးေဆး ႏိုင္ဘူး။ ရင္ေတြ ထူးထူးျခားျခားခုန္ေနတယ္။ ၿပီးသြားတာနဲ႔ သူ႔ကိုလွမ္းေခၚၿပီး ေပးလိုက္တယ္။ သူက က်သင့္တဲ့ ေငြရွင္းၿပီး .. က်ေနာ့္ကို ေက်းဇူးတင္စကား ေျပာတယ္။ ၿပီးေတာ့ က်ေနာ့္ကို ေန႔လည္စာလိုက္စားဖို႔ဖိတ္တယ္။ ဗမာအခ်င္းခ်င္းလည္း ျဖစ္လို႔ မိတ္ျဖစ္ ေဆြျဖစ္ပါတဲ့။


တကယ္ေတာ့ ဒီေလာက္ေလးနဲ႔ ဘာျဖစ္မွာလဲဗ်ာ ေနာ္။ ဟုတ္ပါတယ္ ... ဒါေပမယ့္ ခက္တာက အရင္ရက္ေတြ ရွိထားေသးတယ္ေလ။ သူက က်ေနာ့္ကို ခင္ခင္မင္မင္ပဲဗ်။ တျခားတႏိုင္ငံမွာ ဗမာအခ်င္းခ်င္းေတြ႕လို႔ ခင္မင္တဲ့ သေဘာေပါ့ေလ။ ထမင္းစားၿပီး စကားေတြ ေျပာျဖစ္ၾကခ်ိန္မွာ က်ေနာ္တို႔ေတာ္ေတာ္ေလး ရင္းႏွီးသြားၿပီ ..။

သူျပန္သြားေတာ့ က်ေနာ္အလုပ္ဆက္လုပ္တယ္ .. က်ေနာ့္လုပ္ေနက်အလုပ္ေတြက တခုခုလိုေနသလိုပဲ။ ထူးဆန္းတယ္ဗ်ာ။ အဲဒီညက က်ေနာ္အိမ္ျပန္ေရာက္ေတာ့ တီးေနက် စေကးလ္ေတြမတီးဘဲ သီခ်င္းေတြ တီးဆို ေနမိတယ္ .. တခန္းထဲေနတဲ့သူငယ္ခ်င္းကေတာင္ အံ့ၾသလို႔ .. မင္း ဘာျဖစ္ေနတာလဲတဲ့။ က်ေနာ္လည္း ဘာျဖစ္မွန္းမသိပါဘူး။


က်ေနာ္က ရည္းစားေတြဘာေတြ မထားဘူးတဲ့ေကာင္ေတာ့လည္း မဟုတ္ပါဘူး .. ဒီလိုပဲ ထားခဲ့ဖူးပါတယ္။ ဒါေပမယ့္ ခုဏေျပာသလို သိပ္စိတ္လႈပ္ရွားမလြယ္လို႔လား မသိဘူး ေကာင္မေလးေတြက က်ေနာ့္ဒဏ္ကို မခံႏုိင္ဘူး .. ကြဲတာပဲ ..။ က်ေနာ္လည္း ရည္းစားထားရတာကို သိုင္းဝတၳဳဖတ္သလိုပဲ ခံစားလိုက္တယ္။ ၿပီးသြားရင္ ၿပီးသြားေရာပဲ။


အဲဒါပါပဲ .. ခုဏက စာအုပ္ဆိုင္မွာေတြ႕တဲ့ေကာင္မေလး ... နာမည္ေျပာပါတယ္ .. ဒါေပမယ့္ က်ေနာ္ကေတာ့ ေကာင္မေလးလို႔ပဲ ေျပာမယ္ဗ်ာ ... သူနဲ႔က် ထူးဆန္းတယ္ဗ်။ ေနာက္ရက္မွာ သူ စာအုပ္ဆိုင္ထဲမွာ စာဖတ္ေနတာေတြ႕လို႔ ဝင္ႏႈတ္ဆက္လိုက္ေသးတယ္။ သူက ဘာေျပာလဲဆိုေတာ့ ထမင္းတူတူစားရေအာင္တဲ့။ တကယ္ဆို က်ေနာ္က ေန႔လယ္စာကို ၃ နာရီေလာက္မွစားျဖစ္တာ .. အဲဒါေလ ကေမာက္ကမျဖစ္ပါတယ္ဆို။ ကသိကေအာင့္ေတာ့ မျဖစ္ခဲ့ပါဘူး။ သူနဲ႔တူတူ ေန႔လယ္ ၁၂ နာရီေလာက္မွာ စားျဖစ္တယ္ဗ်ာ။


သူက ဒီႏိုင္ငံကို အလယ္သက္သက္ပဲ။ သူ႔အေဖအလုပ္ကိစၥနဲ႔လာရင္းပါလာတာ။ စာအုပ္ေတြ မတရားဖတ္တယ္။ ဒါပဲ။ သူ႔အေဖျပန္ရင္ ျပန္မွာေလ။ ဘယ္ေန႔လဲဆိုေတာ့ ေနာက္ထပ္ ၃ ရက္ေနရင္တဲ့ .. ေသေရာဗ်ာ။


ခင္ဗ်ားတို႔ Princess and the Photographer ကားၾကည့္ဖူးမွာေပါ့။ သူက မင္းသမီးတပါးေတာ့ မဟုတ္ပါဘူး။ က်ေနာ္လည္း ဓာတ္ပံုဆရာမဟုတ္ဘူး။ ဒါေပမယ့္ က်ေနာ္တို႔ဇာတ္လမ္းက အဲဒီသေဘာပဲ ..။ ဒီႏိုင္ငံမွာ သူငယ္ခ်င္းမရွိတဲ့သူ႔အတြက္ က်ေနာ္က သူ႔သူငယ္ခ်င္းျဖစ္သြားတယ္။ က်ေနာ့္အလုပ္အားရက္ကို ေမးၿပီး သူနဲ႔အတူ ေလွ်ာက္လည္ပါလားဆိုတဲ့စကားကို က်ေနာ္မျငင္းျဖစ္လိုက္ဘူး .. ။ က်ေနာ့္အလုပ္အားရက္က သူမျပန္ခင္ တရက္ျဖစ္ေနတာကေတာ့ တိုက္ဆိုင္မႈေပါ့ဗ်ာ။


က်ေနာ့္အတြက္ကေတာ့ အရာရာကေမာက္ကမျဖစ္ကုန္ေတာ့တာပဲေလ။ ဂစ္တာစေကးလ္ေတြလည္း ကေျပာင္းကျပန္ေတြျဖစ္ .. ေလွ်ာက္ေနက်လမ္းကေလးလည္း ကိုးယိုးကားယားေတြျဖစ္ .. ၿပီးေတာ့ ျမင္ေနက် အရာေတြလည္း မႈံဝါး .. စီးေနက် အမ္အာတီေတြ၊ အယ္လ္အာတီေတြလည္း ႐ႈပ္ေထြး ... နဲ႔ .. ။ သိုင္းဝတၳဳ ေတြလည္း ဖတ္လို႔မရ ... အက္ရွင္ကားေတြအစား အခ်စ္ဇာတ္လမ္းေတြ ၾကည့္လို ၾကည့္ .. ။ ကြမ္းဆိုင္ေရွ႕ ေရာက္မွ လွည့္ျပန္မိတာလည္း အခါခါ .. “ ယူ ... ကြမ္းေတြ သိပ္မစားနဲ႔ေလ” ဆိုတဲ့ အသံေလး ၾကားေနတာကိုး ဗ် ..။ ၿပီးေတာ့ ေခၽြးထြက္သန္တဲ့ က်ေနာ့္အတြက္ ေမႊးပြ မ်က္ႏွာသုတ္လက္ကိုင္ပုဝါေလး တထည္ ေပးခဲ့တယ္။


သူ႔အေၾကာင္းေျပာျပေတာ့ သူ႔မွာ လက္ထပ္ဖို႔ရည္ရြယ္ထားတဲ့ ခ်စ္သူရွိတယ္တဲ့။ ဒါပါပဲ။

က်ေနာ္ ... ဒီဘက္ကမၻာက လိပ္ျပာေလးတေကာင္ကို သတ္လိုက္မိၿပီ ထင္ပါရဲ႕ဗ်ာ .. ။

က်ေနာ္တီးျဖစ္ေသာ သီခ်င္းမ်ား

TICO TICO BY NYI NYI HTWE



HUNGARIAN DANCE BY NYI NYI HTWE



YEAR OF DECAY BY NYI NYI HTWE

Wednesday, December 31, 2008

သယ္ေဆာင္သြားမယ့္ ပန္းတခင္း

ႏွင္းဆီပန္းေတြ ကမ္းလံုးညႊတ္ေအာင္ ပြင့္တဲ့မနက္ခင္းတခုမွာ က်ေနာ္တို႔ေတြ႕တယ္။ တကယ္က အဲဒီ ႏွင္းဆီေတြ အျပင္မွာ ပြင့္ေနတာမဟုတ္ဘူးေလ။ က်ေနာ့္ရင္ထဲမွာပြင့္ေနတာ သိတယ္မဟုတ္လား။ ႏွင္းဆီေတြက ယိမ္းယိမ္းႏြဲ႕ႏြဲ႕၊ ေရာင္စံု လန္းစြင့္လို႔၊ ၿပီးေတာ့ ေမႊးျမလို႔ .. ။ က်ေနာ္က ေကာင္မေလး လို႔ ေခၚတဲ့သူ႔ဆီမွာ က်ေနာ္သိပ္ခ်စ္တဲ့ ေမးေစ့ခၽြန္ခၽြန္ေလးရွိတယ္ ..။ က်ေနာ့္ကို ဖံုးမႏိုင္ဖိမရ ခ်စ္ေနတယ္ဆိုတာ ေပၚလြင္တဲ့ မ်က္ဝန္းတစံုရွိတယ္ ..။ ၿပီးေတာ့ က်ေနာ့္ကို ရင္ခုန္လႈိက္ေမာေစတဲ့ ႏႈတ္ခမ္းပါးေလး ရွိတယ္။ ဒီေလာက္ဆိုေတာ္ၿပီေပါ့။ မဟုတ္ေသးဘူး .. က်ေနာ္တို႔ ၂ ေယာက္စလံုးအတြက္ ၿပီးျပည့္စံုတဲ့ အခ်စ္ေတြ က်ေနာ္တို႔ ၂ ေယာက္လံုးစီမွာ အျပည့္အဝရွိတယ္။ က်ေနာ္က ခပ္ေပါေပါ အခ်စ္ဝတၱဳေတြ၊ ဗီဒီယို ဇာတ္လမ္းေတြကို အယံုအၾကည္မရွိဘူး ... ၿပီးေတာ့ အိပ္မက္ ဆိုတာကို လက္ေတြ႕ဘဝေလာက္ မမက္ေမာဘူး။ ဒါေပမယ့္ သူက က်ေနာ့္ဆီကို အဲဒါေတြ အားလံုး သယ္ေဆာင္လာခဲ့တယ္။ တခါတေလမွာ တကယ့္အျဖစ္အပ်က္ေတြက စိတ္ကူးယဥ္ဇာတ္လမ္းေတြထက္ ဆန္းၾကယ္တယ္လို႔ ေျပာဖူးတဲ့ သူငယ္ခ်င္းတေယာက္ကို က်ေနာ္ဟားခဲ့ဖူးပါတယ္။ ခု အဲဒီသူငယ္ခ်င္းကို က်ေနာ္ ထို္င္ရွိခိုးခ်င္စိတ္ ေပါက္ေနမိတယ္။ သူေျပာတာ မွန္လြန္းလို႔ပါ။ ေကာင္မေလးနဲ႔ က်ေနာ္နဲ႔ ဇာတ္္လမ္းက စိတ္ကူးယဥ္ၿပီးေပါေတာေတာေလွ်ာက္ေရးထားတဲ့ ခပ္ခ်ာခ်ာ ဝတၳဳေရး ဆရာတေယာက္ရဲ႕ က်ိန္စာသင့္ခဲ့တယ္ဗ်ာ။ မျဖစ္ႏိုင္ဘူးဆိုတာ မရွိဘူးတဲ့လား ... ဟုတ္ကဲ့။ အဲဒီ စကားကို ဘယ္သူကမ်ား ေျပာခဲ့ပါလိမ့္။ တက္က်မ္းဆရာတေယာက္က ေျပာခဲ့တာထင္ပါရဲ႕။ ဟုတ္လိုက္ေလ .. မျဖစ္ႏိုင္ဘူး ဆိုတာမ်ား မရွိရင္ သိပ္ေကာင္းမွာပဲ ကိုယ့္ဆရာေရ႕။ ခင္ဗ်ားေျပာသလို မျဖစ္ႏုိင္ဘူး ဆိုတာေတာ့ မရွိဘူးေပါ့ .. ဒါေပမယ့္ ဆင္ျခင္တတ္တဲ့ဦးေႏွာက္ေတြ လူေတြဆီမွာရွိေနတယ္ဗ်ာ။ ျဖစ္ေအာင္ လုပ္လို႔ရေပမယ့္ ျဖစ္လို႔မရတဲ့ ကိစၥေတြရွိတယ္ဗ်ာ ကဲ ႐ႈပ္ကုန္ၿပီထင္ပါရဲ႕။ မ႐ႈပ္ပါနဲ႔ က်ေနာ္ရွင္းပါ့မယ္ .. ဘာရယ္မဟုတ္ဘူးဗ်ာ .. ႏွစ္သစ္အဝင္မွာ ဝတၳဳေလးတပုဒ္ကို အစပ်ိဳးၾကည့္တာပါ ဟဲဟဲ .. ။ တကယ္ေတာ့ က်ေနာ့္ေကာင္မေလးနဲ႔ က်ေနာ္နဲ႔ ဇာတ္လမ္းေလးကို ႏွစ္သစ္ထိ ယူမသြားခ်င္ဘူးဗ်။ ဒါေပမယ့္ မရဘူး .. သယ္သြားရေတာ့မွာပဲ။ ဒီဇာတ္လမ္းက ခင္ဗ်ားတို႔ျမင္တဲ့အတိုင္း အဆံုးသတ္လို႔မွ မရေသးဘဲ .. ။ က်ေနာ္ကုိယ္တိုင္လည္း အဆံုးသတ္လို႔မရေသးဘူး ေကာင္မေလးကိုလည္း အဆံုးသတ္ခိုင္းလို႔မရဘူး .. ။ က်ေနာ့္သူငယ္ခ်င္းေတြ ဝိုင္းၿပီး အဆံုးသတ္ေပးၾကည့္ပါလားဗ်ာ ..။ ဘယ္သူမွ အဆံုးသတ္ေပးလို႔ မရဘူး ဆိုရင္ေတာ့ ေနာက္ႏွစ္ ၂၀၀၉ ခုထဲကို ဒီဇာတ္လမ္းေလး ယူသြားရဦးေတာ့မွာ ...။ တကယ္ေျပာတာဗ် ... က်ေနာ္တို႔ ၂ ေယာက္က တေယာက္ကို တေယာက္ သိပ္ခ်စ္ၾကတယ္။ ျမန္မာဗီဒီယို အခ်စ္ဇာတ္လမ္းေတြ ထဲကလိုပဲ ... တေယာက္နဲ႔တေယာက္ မေမွ်ာ္လင့္တဲ့ေနရာမွာ မေမွ်ာ္လင့္ဘဲ ေတြ႕ၾကၿပီး မေမွ်ာ္လင့္ဘဲ သိပ္ခ်စ္သြားၾက .. ၿပီးေတာ့ ခ်စ္ရက္နဲ႔ ခြဲခြာခဲ့ရတယ္ ဆိုပါေတာ့ဗ်ာ။ ဘယ္ေတာ့မွ မဆံုႏုိင္ေတာ့တဲ့ မ်ဥ္းၿပိဳင္ ၂ ေၾကာင္းလိုပဲဆိုတာ သိၾကေပမယ့္ အဲဒီမ်ဥ္းၿပိဳင္ ၂ ေၾကာင္းက ခ်စ္ေနဆဲပဲဗ်။...သခ်ၤာ သေဘာအရ ဆိုရင္ Infinity ဆိုတဲ့ ေနရာမွာေတာ့ ဆံုခ်င္ဆံုမွာေပါ့။ ဆံုခ်င္မွလည္း ဆံုမွာေပါ့ ... ဒီေတာ့ ဇာတ္လမ္းက အဆံုးသတ္လို႔မရဘူး .. ကဲ မထူးဘူးဗ်ာ .. အခ်ိန္က သိပ္က်န္ေတာ့တာ မဟုတ္ဘူး ၂၀၀၉ ထဲကို သယ္သြား ေတာ့မယ္။ က်ေနာ့္ရင္ထဲမွာ ပြင့္ေနတဲ့ ႏွင္းဆီတခင္းကိုေတာ့ ဘယ္လိုမွ သတ္မပစ္ႏုိင္ဘူးဗ်ာ .. ပြင့္လက္စ ႏွင္းဆီေတြ ဆက္ပြင့္ ပါေစေတာ့ ... ေမႊးလက္စေတြလည္း ဆက္ေမႊးျမပါေစေတာ့ .. ။ ခင္ဗ်ားတို႔ရင္ခြင္ထဲမွာေကာ ပန္းေတြ အဲလိုပဲ ဖူးပြင့္ေနၾကလား။ အဲလိုပဲ ဖူးပြင့္ေနတယ္ဆိုရင္ေတာ့ မထူးပါဘူး ခ်န္မထားခဲ့နဲ႔ေတာ့ ႏွစ္သစ္ကို သယ္သြားလိုက္ပါ။ အခ်စ္ဆိုတာ အမုန္းထက္ေတာ့ ပိုေကာင္းပါတယ္ဗ်ာ .. ဟုတ္တယ္ မဟုတ္လား။ ႏွစ္သစ္မွာ သူငယ္ခ်င္းအားလံုး ခ်စ္ျခင္းတရားေတြနဲ႔ ေပ်ာ္ရႊင္ျခင္းေတြ ပိုင္ဆိုင္ႏိုင္ၾကပါေစ



Tuesday, December 30, 2008

က်ေနာ္ဖတ္ရေသာ ဂစ္တာေတြအေၾကာင္း

ဂစ္တာတလက္ရဲ့ သိကၡာကေတာ့တည္ျငိမ္ေသသပ္မႉနဲ႕ ျပည့္စုံခိုင္ခန္႕မႉ တို႕ပါပဲ ။ ဒီေန႕နာမည္ၾကီးဂစ္တာေတြဟာသူတို႕ သမိုင္းနဲ႕သူတို႕ ေက်ာ္လြန္ျဖတ္သန္းခဲ့ၾကရပါတယ္ ။ Gibson / BcRich / Charvel / Dean / Ibanez နဲ႕ Fender အစရွိတဲ့ ဂစ္တာကုမၼဏီ ေတြဟာ ဆယ္စုႏွစ္မ်ားစြာ ျဖတ္သန္းခဲ့တဲ့ ရာဇဝင္ ကိုယစီနဲ႕ပါ ။ အခု အခ်ိန္အထိ Metal ဂစ္တာတိုက္စစ္မႉးေတြ တခုတ္တရတီးေနၾကတဲ့ Flying V ပုံစံ ကို Gibson ကုမၼဏီ က ၁၉၅၀ ကထဲ က သေႏၷတည္စတင္ခဲ့ပါတယ္ ။ BcRich / Charvel / Dean / Ibanez ကုမၼဏီ ေတြကေတာ့ Rock ဂစ္တာေတြကို ၁၉၇၀ ကတည္းက အစပ်ိဳး သေႏၷတည္ခဲ့ၾကပါတယ္ ။


ႏွစ္သုံးဆယ္ ၾကာျဖတ္သန္းခဲ့တဲ့ Schecter ကုမၼဏီ ရဲ့ရာဇဝင္ကိုလည္းေမ့ထားလို႕မရပါဘူး ။ ဂစ္တာကုမၼဏီ ေတြမွာသူရဲ့ Series သူ႕ရဲ့မူပိုင္ပုံစံနဲ႕ သီးသီးသန္႕သန္႕ ခိုင္ခိုင္မာမာ ရပ္တည္ခဲ့ၾကပါတယ္ ။ ကုမၼဏီ တခုရဲ့ ပုံစံကို ဂစ္တာလည္တိုင္ ဂစ္တာကိုထည္ ဂစ္တာေခါင္းကအစ ေနာက္ကုမၼဏီ တခုက သိသိသာသာ ပုံစံတူ ထုတ္လုပ္ လို႕မရပါဘူး ။ သူ႕မူပိုင္ခြင့္ သူရဲ့ မွတ္ပုံတင္နဲ႕ျဖစ္တဲ့အတြက္ ခြင့္ေတာင္းပီး တန္ရာတန္ေၾကး ေပးရပါတယ္ ။ Fender ကုမၼဏီ ကအေစာပိုင္းမွာ Gibson ရဲ့ Series ပုံစံကို အေၾကာင္းမၾကားပဲ ထုတ္ခဲ့တဲ့အတြက္ တရားစြဲဆို ခံခဲ့ရပါတယ္ ။

က်ေနာ္သိတဲ့ Schecter ဂစ္တာေတြအေၾကာင္းစေျပာပါမယ
္ ။ Schecter ကုမၼဏီ ကထုတ္တဲ့ Schecter Diamond Series ေတြအေၾကာင္းပါ။Schecter Diamond Series ကို စြဲစြဲျမဲျမဲ တီးေနတဲ့ ဒီေန႕နာမည္ၾကီးဂစ္တာသမားက ေတာ့ Avengend Sevenfold တီးဝိုင္းကေရွ႕တန္း လူ Synyster Gates နဲ႕Rancid တီးဝိုင္းကေရွ႕တန္းလူ Tim Armstrong တို႕ပါပဲ ။ Synyster Gates ကေတာ့ ၂၀၀၆ ခုႏွစ္ရဲ့အေကာင္းဆုံးဂစ္တာသမား အျဖစ္ Total guitar မဂၢဇင္းမွာေဖာ္ျပခံခဲ့ရတဲ့ပုဂိၢဳလ္ပါ ။ဒီ Schecter Diamond Seriesေတြကို Schecter ကုမၼဏီ ရဲ့၁၉၉၆ ကေန ၂၀၀၆ အထိႏွစ္ ၃၀ေမြးေန႕အထိမ္းအမွတ္အျဖစ္ပိုပီး လူသိပိုမ်ားလာၾကပါတယ္ ။

Schecter ကုမၼဏီ ရဲ့ သေႏၷတည္ရာေနရာကေတာ့ ေတာင္ကယ္လီဖိုးနီးယား မွာ၁၉၇၆ကစခဲ့တဲ့ Dave Schecter ဆိုတဲ့ ပုဂိၢဳလ္ၾကီးပါ။ သူဟာ ဂစ္တာအပို ပစၥၫ္းေလးေတြ ေရာင္းခ်ရာကေန ေစ်းကြက္ဝင္ဂစ္တာေတြ ထုတ္လုပ္ႏိုင္တဲ့အထိေအာင္ျမင္မႉရခဲ့ပါတယ္ ။ သူ သေႏၷတည္ခဲ့တဲ့ Schecter ဂစ္တာေတြဟာ ကိုယ္ပိုင္သိကၡာ ကိုယ္ပိုင္ပုံစံနဲ႕ရပ္တည္ႏိုင္ခဲ့ပါျပီ ။ Schecter ကုမၼဏီ ရဲ့ေနာက္ပိုင္းပုဂိၢဳလ္ေရးနဲ႕ေနရာေဒသအေျခအေနအရ အဓိကေနရာႏွစ္ေနရာကြဲသြားပါတယ္ ။ ေတာင္ကယ္လီဖိုးနီးယား မွာ နဲ႕ ေတာင္ကိုရီးယား မွာ ႏွစ္ေနရာထုတ္လုပ္ ပါတယ္ ။


ဆက္ေရးမယ္ဗ်ိဳ႕

Sunday, December 28, 2008

က်ေနာ္ ႏွင့္ စိတ္ကူးယဥ္ျခင္း


Nga yin khwint ko - zaw win htut.mp3 -
က်ေနာ္ ကို ကိုဂ်ယ္ က တဂ္ထားတယ္ဗ် စိတ္ကူးယဥ္တဲ့အေၾကာင္းေလး စီေဘာက္ မွာလာေအာ္ထားလို႕သြားဖတ္ရေသးတယ္ ကိုဂ်ယ္ကစာေရးေတာ့ေတာ္ေတာ္ေကာင္းတဲ့လူဗ် သူ႕ေကာင္မေလး နဲ႕အေၾကာင္းကိုေရးထားတာ က်ေနာ္ေတာင္အဲလိုစိတ္ကူးလိုက္ယဥ္ မိေသးတယ္ အဟီး ။က်ေနာ္ေရးတတ္သ ေလာက္ေရးမယ္ေနာ္ ကိုဂ်ယ္ ခင္ဗ်ား ကိုခင္လို႕ ။
က်ေနာ္ ကေတာ့စိတ္ကူးယဥ္တတ္တဲ့ေကာင္ပဲဗ် ဘာလို႕လဲဆို ေတာ့ပိုက္ဆံမွမေပးရတာ ကိုျဖစ္ခ်င္သလို ပိုးဆိုးပက္စက္ျဖစ္လို႕ရတယ္ေလ အဓိက ျဖစ္ခ်င္တာနဲ႕စိတ္ကူးယဥ္တာကေတာ့ သူငယ္ခ်င္းေတြနဲ႕ တီးဝိုင္းတဝိုင္း ေလာက္ေထာင္ပီး သီခ်င္းေတြဆိုခ်င္တယ္ ။ ေအာင္ျမင္ခ်င္တာ မဟုတ္ဘူးအေပ်ာ္တမ္း တီးဝိုင္းေလးပဲျဖစ္ျဖစ္ စိတ္ကူး ယဥ္တာေပါ့ဗ်ာ ။ ဒါကဂစ္တာ နဲ႕ပတ္သတ္လို႕ စိတ္ကူးယဥ္တာ ။ ေနာက္တခုက က်ေနာ္ ေျပာရင္ ဖတ္ရင္း မရီက်နဲ႕ေနာ္ဗ် Hacker တစ္ေယာက္လည္းျဖစ္ခ်င္ေသးတယ္ ဒါကေတာ့ မျဖစ္ႏိုင္ပါဘူး စာအုပ္ေတြဖတ္လိုက္လုပ္ ကိုယ္႔ Laptop နဲ႕Desktop သာ တလွည့္ ဆီ ေဖာ္မက္ ခ်လိုက္ရတယ္ အခုေတာ့စိတ္ကူးေတာင္သိပ္ မယဥ္ေတာ့ဘူးဒီအေၾကာင္းကို ဟီးဟီး ။ အခုအခ်ိန္ မွာ စိတ္ကူးယဥ္တာ က ခ်စ္သူေလးအေၾကာင္း ေတြပဲျဖစ္ေနတယ္ အခြင့္ရွိေသးလို႕ သူ႕အနားမွာအရင္လို ျပန္ေနရမယ္ ဆိုရင္သူ မၾကိဳက္တာဘာမွမလုပ္ဘူး ကုန္ကုန္ ေျပာရင္ သူ႕မ်က္ႏွာေတာင္ တခ်က္အညိဳ မခံဘူးဗ်ာ ေနာက္တခုယဥ္တာက အရင္လို အလုပ္ဆင္းလို႕အိမ္ျပန္ခ်ိန္ ဆို သူ႕ပခုံး ကိုက်ေနာ္ကဖက္ရင္ဖက္ မဟုတ္ရင္ သူကက်ေနာ့ လက္ေမာင္းကိုတြဲလို႕ အရင္လိုလမ္း ေလွ်ာက္ခ်င္ေသးတယ္ဗ် ေနာက္တပါတ္ တခါ ေလာက္ ကန္ေတာ္ၾကီး ထဲ မွာလမ္းသြားေလွ်ာက္မယ္ လမ္းေလွ်ာက္လို႕ေညာင္းလာရင္ ေဟာ္လို႐ိႈး ေလးထိုင္နားေထာင္မယ္ သီခ်င္းလိုက္ဆိုမယ္ ။ အရင္အ ခ်ိန္ေတြလိုေပါ့ ။
အခု စိတ္ကူး ေနတာကေတာ့ က်ေနာ္ ဧပရယ္ မွာျပန္ဖို႕ နဲ႕ သူနဲ႕လက္ထပ္ ဖို႕အတြက္ပဲ ။ မေန႕က က်ေနာ့ အခန္း ကတူတူေနတဲ့ ညီလိုအကိုလို ခင္တဲ့သူပါပဲ သူျပန္လာတယ္ ။သူကမဂၤလာ ျပန္ေဆာင္တာေလ ျပန္ေရာက္ေရာက္ ျခင္းပဲဓာတ္ပုံေတြျပတယ္ ေပ်ာ္စရာေကာင္းတယ္ဗ်ာ ။ ပုံေတြၾကည့္ပီး သူ႕အေပ်ာ္ေတြက်ေနာ့ကို ကူးတယ္ဗ် ။ ဆိုင္မွာေတာ့ မဟုတ္ဘူး က်ေနာ္ညကစိတ္ကူးယဥ္မိတာနဲ႕ ကိုဂ်ဲ တဂ္တာနဲ႕တိုက္ဆိုင္လို႕ထည့္ေရးလိုက္တာ ။ တခါတေလစိတ္ကူးယဥ္တာေတြ ကေပ်ာ္စရာေတြၾကီးျဖစ္ႏိုင္သလို တခါတေလေတာ့လည္း စိတ္ညစ္စရာေတြပါတတ္တယ္ဗ် ။ တတ္ႏိုင္ရင္ ေတာ့ က်ေနာ့သူငယ္ခ်င္းေတြလည္း စိတ္ခ်မ္းသာစရာေလးေတြ ေတြးပီးစိတ္ကူးယဥ္က် ေပါ့ဗ်ာ ။ အခုလက္ရွိ က်ေနာ္ ကေတာ့ ဂစ္တာနဲ႕ အမ္ပလီဖိုင္ယာ ဝယ္ပီး ပီ ။ ႂကြားတာဟုတ္ဘူးေနာ္ ဘယ္လိုမွမထင္မွတ္ပဲ Singapore သူငယ္ခ်င္းေတြရပီး သူတို႕ရဲ့ Family Band မွာ Second Lead နဲ႕ Hollow ကို က်ေနာ္ အလုပ္နားရက္မွာသြားသြား တီးျဖစ္ပါတယ္ ။ ဘာပဲေျပာေျပာ က်ေနာ့ရဲ့ ပထမစိတ္ကူး ကလက္ေတြ႕ျဖစ္လာတာေပါ့ဗ်ာ ။ ဒုတိယ စိတ္ကူး ကေတာ့ လုံးဝ ကိုေမ့ထား တယ္ မျဖစ္ႏိုင္မွန္းသိလို႕ ။ က်ေနာ့ ရဲ့ တတိယ စိတ္ကူးေလး ျဖစ္ေအာင္လည္း က်ေနာ္ၾကိဳးစားေနတယ္ သူနဲ႕လက္ထပ္ ျဖစ္ေအာင္လို႕ေပါ့ က်ေနာ့သူငယ္ခ်င္းေတြ လည္း ဆုေတာင္းေပးၾကပါဦးေနာ္ ။ က်ေနာ့ မွာစိတ္ကူးမိတာကေလာေလာ ဆယ္ ဒါပဲဗ် ။
က်ေနာ္ေရးတတ္သေလာက္ ေလးေရးထားတာပါ ။ ကိုဂ်ယ္လည္း ေက်နပ္မယ္ လို႕ထင္ပါတယ္ ။ စာေရးတာက က်ေနာ့ အကိုေတြအမေတြ ကိုမွီေအာင္ အမ်ားၾကီး ၾကိဳးစား ရဦးမယ္ ။
ေနာက္ဆုံးေျပာခ်င္တာက ေတာ့ က်ေနာ့သူငယ္ခ်င္း ေတြ နဲ႕ ဘေလာ့ဂါ ညီ အကို ေမာင္ႏွမေတြ အကုန္ လုံး စိတ္ကူးအိပ္မက္ေတြ နဲ႕ လက္ေတြ႕ဘဝမွာ တထပ္ ထဲ က်ႏိုင္ပါေစဗ်ာ

Friday, December 26, 2008

ခိုင္ျမဲျခင္း

ေကာင္းကင္ထက္မွာအိမ္ေဆာက္မယ္
ဖိုးလမင္းေျမျပင္ေပၚဆင္းသက္
ဒီအေတြးေတြ အကုန္လုံးျဖစ္ႏိုင္တယ္
ငါ့ရင္ခြင္ထဲ အခ်စ္ေတြကိုထုတ္ယူႏိုင္ဖို႕ခက္မယ္ကြယ္

အရွင္းသန္႕ဆုံး ၾကယ္စင္မ်ားရယ္
ေငြေၾကး ေတြနဲ႕ေအာင္ျမင္မႉေတြ
မင္းဆီက အနမ္းမ်ားစြာနဲ႕
လဲယူႏိုင္ဖို႕ခက္လိမ့္မယ္

ငါမင္းကိုပဲခ်စ္တယ္


ဘာမွမဟုတ္ဘူး ကဗ်ာဟုတ္ဘူးေနာ္ အဲေနာင္းသီခ်င္း
ရီးစား ကိုသတိရလို႕
အဟီး

ဒီသီခ်င္းကေတာ့ေကာင္းတယ္ဗ်
က်ေနာ္ ႐ုပ္ရွင္ ၾကည့္တုံးက ဇာတ္ဝင္သီခ်င္းဗ်
ဘယ္သူဆိုတာ လဲမသိဘူး က်ေနာ့သူငယ္ခ်င္းေတြသိရင္လည္း
ေျပာျပပါဦးဗ်ာ
C G
မင္းေက်နပ္ေအာင္ မထားႏိုင္ခဲ့လို႕
Am Em/G
အမွားမ်ားေတြ႕ရင္ အမွန္ျပင္ေပးမိသူ

F C G
ေစတနာ စကားမ်ား နားမွာခါးသလား


ေလာကၾကီးထဲ ေကာင္းမြန္စြာနဲ႕
လမ္းေလွ်ာက္တဲ့ရင္ ဒီအသည္းႏွလုံးကို
နင္ခြဲလိုက္ စိတ္လိုက္ ပိုင္းလိုက္
C G
မလိုခ်င္ပါဘူး မင္းရဲ့တံု႕ျပန္မႉ
Am G
တေန႕ေန႕ မင္းသာပ်ံသန္းသြားရင္

F G
နင္ခြဲခဲ့ ထားခဲ့ ေမ့ခဲ့ ငါ့ရင္ခြင္ကို


ထပ္ဖန္တလဲလဲ မင္းညာေနလည္း
အခုေတာ့မင္းကို ျပစ္မသြားရက္သူ
ဒဏ္ရာမ်ားထဲေမြ႕ေလွ်ာ္တဲ့သူ

ေလာကၾကီးအေၾကာင္း နားမလည္ပါဘူး
ဘဝရဲ့အဓိပၸယ္ မသိေသးတဲ့အရြယ္
နင္ခ်စ္လိုက္ မုန္းလိုက္ ကစားလိုက္

မလိုခ်င္ပါဘူး မင္းရဲ့တံု႕ျပန္မႉ
တေန႕ေန႕ မင္းသာပ်ံသန္းသြားရင္
နင္ခြဲခဲ့ ထားခဲ့ ေမ့ခဲ့ ငါ့ရင္ခြင္ကို ငါ့အတြက္အားလုံးျပည့္စုံ ငါအသက္ရွင္ႏိုင္ပီ